HomePortailFAQSearchMemberlistUsergroupsRegisterLog in

Share | 
 

 guitar chords :D

View previous topic View next topic Go down 
AuthorMessage
~kEi
Admin
Admin


Male
Number of posts : 958
Age : 27
Location : sa mundo ng kawalan..
Job/hobbies : tagahugas ng itl*g ng kabayo..
Registration date : 20/09/2008

PostSubject: guitar chords :D   Thu Aug 06, 2009 11:02 am

hmm..di ko alam kung papatok ito pero para ito sa mga gitarista ng kiko site..rakenrol lang!!
asteeg

_________________

"..lahat binabangga, lahat sinisira, lahat winawasak!..walang sinasanto, walang sinusunod, walang kasingsama -- ang hari ng metal!!..
Back to top Go down
View user profile http://pislabrakenrolkei.multiply.com/
~kEi
Admin
Admin


Male
Number of posts : 958
Age : 27
Location : sa mundo ng kawalan..
Job/hobbies : tagahugas ng itl*g ng kabayo..
Registration date : 20/09/2008

PostSubject: Re: guitar chords :D   Thu Aug 06, 2009 11:09 am

ako na maguumpisa...sa mga fans ng Kamikazee, ito ang kantang Girlfriend mula sa album na Kamikazee Special Edition..Ü

INTRO:
E|---------------------------------|
B|---------------------------------|
G|--------77----------------------|
D|-----77----77-55-44-55-77---|
A|--55----------------------------|
E|---------------------------------|


VERSE 1:
D C#m Bm
it never even crossed my mind
A D
that i would fall inlove with you
C#m Bm
you were always there behind me
A D
but i never looked that way
C#m Bm
friends are friends i looked at them
A D
nothing more and nothing less
C#m B
familiar things you say and do
A D
seem so strange its not like you

INTERLUDE: D-C#m-Bm-A (2x)

*Do chords of VERSE 1:
it never even crossed my mind
that i would fall inlove with you
you were always there behind me
but i never looked that way
funny things that made me laugh
is when i think about the past
i never saw it coming
but when i turn around and you were there

CHORUS:

D C#m Bm
I learned today
A D
that i need you more each day
C#m Bm
grab on to you
A D
dont ever let go...
D C#m Bm
I learned today
A D
that i need you more each day
C#m Bm
grab on to you
A D
dont ever let go...

E------------------------------------------------------------------|
B------------------------------------------------------------------|
G-------2----2---2----2----2---2----2----2---2----2----2---2--|
D----00---00---0---00---00---0---------------------------------|
A------------------------------------------------------------------|
E--------------------------------33---33---3---33---33---3-----|

E------------------------------------------------------------------|
B------------------------------------------------------------------|
G-------2----2---2----2----2---2----2----2---2----2----2---2--|
D------------------------------------------------------------------|
A----22---22---2---22---22---2---00---00---0---00---00---0--|
E-------------------------------------------------------------------|

E------------------------------------------------------------------|
B-------3----3---3----3----3---3----3----3---3----3----3---3--|
G------------------------------------------------------------------|
D----00---00---0---00---00---0---------------------------------|
A------------------------------------------------------------------|
E--------------------------------33---33---3---33---33---3-----|




E------------------------------------------------------------------|
B-------3----3---3----3----3---3----3----3---3----3----3---3--|
G------------------------------------------------------------------|
D------------------------------------------------------------------|
A----22---22---2---22---22---2---00---00---0---00---00---0-|
E------------------------------------------------------------------|



REPEAT INTRO:
D-G-Bm-A (2x)


CHORUS:
D G Bm
I learned today
A D
that i need you more each day
G Bm
grab on to you
A D
dont ever let go

D G Bm
I learned today
A D
that i need you more each day
G Bm
grab on to you
A D
dont ever let go...

D-G-Bm-A 2x

_________________

"..lahat binabangga, lahat sinisira, lahat winawasak!..walang sinasanto, walang sinusunod, walang kasingsama -- ang hari ng metal!!..
Back to top Go down
View user profile http://pislabrakenrolkei.multiply.com/
neng
God..
God..


Female
Number of posts : 659
Age : 24
Location : sa lugar na hindi mo alam
Job/hobbies : huminga
Registration date : 16/11/2008

PostSubject: Re: guitar chords :D   Fri Aug 07, 2009 8:53 pm

^ astig kei!

ayos yan!
haha.

magkakasundo-sundo mga kikopals
na gitarista dito!

uhm.
Back to top Go down
View user profile http://selfish_acu@yahoo.com
Sponsored content




PostSubject: Re: guitar chords :D   Today at 7:58 am

Back to top Go down
 
guitar chords :D
View previous topic View next topic Back to top 
Page 1 of 1
 Similar topics
-
» dragon guitar
» "Anatomy of a guitar"
» go guitar boy

Permissions in this forum:You cannot reply to topics in this forum
 :: ..::Main Discussion::.. :: Musika.. :: Banda-licious!..-
Jump to: